0
SECTION
2
HEADER
9
$INSUNITS
70
4
9
$ACADVER
1
AC1014
9
$HANDSEED
5
FFFF
0
ENDSEC
0
SECTION
2
TABLES
0
TABLE
2
VPORT
5
8
100
AcDbSymbolTable
0
ENDTAB
0
TABLE
2
LTYPE
5
5
100
AcDbSymbolTable
0
LTYPE
5
14
100
AcDbSymbolTableRecord
100
AcDbLinetypeTableRecord
2
BYBLOCK
70
0
0
LTYPE
5
15
100
AcDbSymbolTableRecord
100
AcDbLinetypeTableRecord
2
BYLAYER
70
0
0
ENDTAB
0
TABLE
2
LAYER
5
2
100
AcDbSymbolTable
70
2
0
LAYER
5
50
100
AcDbSymbolTableRecord
100
AcDbLayerTableRecord
2
0
70
0
6
CONTINUOUS
0
ENDTAB
0
TABLE
2
STYLE
5
3
100
AcDbSymbolTable
70
1
0
STYLE
5
11
100
AcDbSymbolTableRecord
100
AcDbTextStyleTableRecord
2
STANDARD
70
0
0
ENDTAB
0
TABLE
2
VIEW
5
6
100
AcDbSymbolTable
70
0
0
ENDTAB
0
TABLE
2
UCS
5
7
100
AcDbSymbolTable
70
0
0
ENDTAB
0
TABLE
2
APPID
5
9
100
AcDbSymbolTable
70
2
0
APPID
5
12
100
AcDbSymbolTableRecord
100
AcDbRegAppTableRecord
2
ACAD
70
0
0
ENDTAB
0
TABLE
2
DIMSTYLE
5
A
100
AcDbSymbolTable
70
1
0
ENDTAB
0
TABLE
2
BLOCK_RECORD
5
1
100
AcDbSymbolTable
70
1
0
BLOCK_RECORD
5
1F
100
AcDbSymbolTableRecord
100
AcDbBlockTableRecord
2
*MODEL_SPACE
0
BLOCK_RECORD
5
1B
100
AcDbSymbolTableRecord
100
AcDbBlockTableRecord
2
*PAPER_SPACE
0
ENDTAB
0
ENDSEC
0
SECTION
2
BLOCKS
0
BLOCK
5
20
100
AcDbEntity
100
AcDbBlockBegin
2
*MODEL_SPACE
0
ENDBLK
5
21
100
AcDbEntity
100
AcDbBlockEnd
0
BLOCK
5
1C
100
AcDbEntity
100
AcDbBlockBegin
2
*PAPER_SPACE
0
ENDBLK
5
1D
100
AcDbEntity
100
AcDbBlockEnd
0
ENDSEC
0
SECTION
2
ENTITIES
0
LWPOLYLINE
5
100
100
AcDbEntity
8
0
100
AcDbPolyline
90
5
70
1
43
0.0
10
680
20
0
10
19.999999999999996
20
2.2204460492503131e-15
42
-0.41421356237309565
10
2.2204460492503131e-15
20
20
10
0
20
80
10
680
20
80
0
LINE
5
101
100
AcDbEntity
8
0
100
AcDbLine
10
15
20
80
30
0
11
27.100000000000001
21
80
31
0
0
LINE
5
102
100
AcDbEntity
8
0
100
AcDbLine
10
27.100000000000001
20
80
30
0
11
27.100000000000001
21
10
31
0
0
LINE
5
103
100
AcDbEntity
8
0
100
AcDbLine
10
27.100000000000001
20
10
30
0
11
15
21
10
31
0
0
LINE
5
104
100
AcDbEntity
8
0
100
AcDbLine
10
15
20
10
30
0
11
15
21
80
31
0
0
LWPOLYLINE
5
105
100
AcDbEntity
8
0
100
AcDbPolyline
90
4
70
1
43
0.0
10
143
20
80
10
143
20
10
10
155.10000000000002
20
10
10
155.10000000000002
20
80
0
LWPOLYLINE
5
106
100
AcDbEntity
8
0
100
AcDbPolyline
90
4
70
1
43
0.0
10
271
20
80
10
271
20
10
10
283.10000000000002
20
10
10
283.10000000000002
20
80
0
LWPOLYLINE
5
107
100
AcDbEntity
8
0
100
AcDbPolyline
90
4
70
1
43
0.0
10
399.00000000000006
20
80
10
399.00000000000006
20
10
10
411.10000000000008
20
10
10
411.10000000000008
20
80
0
LWPOLYLINE
5
108
100
AcDbEntity
8
0
100
AcDbPolyline
90
4
70
1
43
0.0
10
527
20
80
10
527
20
10
10
539.10000000000002
20
10
10
539.10000000000002
20
80
0
LWPOLYLINE
5
109
100
AcDbEntity
8
0
100
AcDbPolyline
90
4
70
1
43
0.0
10
655
20
80
10
655
20
10
10
667.09999999999991
20
10
10
667.09999999999991
20
80
0
LINE
5
110
100
AcDbEntity
8
0
100
AcDbLine
10
15
20
80
30
0
11
667.09999999999991
21
80
31
0
0
LINE
5
111
100
AcDbEntity
8
0
100
AcDbLine
10
667.09999999999991
20
80
30
0
11
667.09999999999991
21
74
31
0
0
LINE
5
112
100
AcDbEntity
8
0
100
AcDbLine
10
667.09999999999991
20
74
30
0
11
15
21
74
31
0
0
LINE
5
113
100
AcDbEntity
8
0
100
AcDbLine
10
15
20
74
30
0
11
15
21
80
31
0
0
LINE
5
114
100
AcDbEntity
8
0
100
AcDbLine
10
680
20
60
30
0
11
674.60934927256721
21
60
31
0
0
LINE
5
115
100
AcDbEntity
8
0
100
AcDbLine
10
674.60934927256721
20
60
30
0
11
674.60934927256721
21
20
31
0
0
LINE
5
116
100
AcDbEntity
8
0
100
AcDbLine
10
674.60934927256721
20
20
30
0
11
680
21
20
31
0
0
LWPOLYLINE
5
117
100
AcDbEntity
8
0
100
AcDbPolyline
90
4
70
1
43
0.0
10
15
20
46
10
1.2582527612418439e-15
20
46
10
0
20
33.899999999999999
10
15
20
33.899999999999999
0
LINE
5
118
100
AcDbEntity
8
0
100
AcDbLine
10
0
20
120
30
0
11
540
21
120
31
0
0
LINE
5
119
100
AcDbEntity
8
0
100
AcDbLine
10
15
20
160
30
0
11
667.09999999999991
21
160
31
0
0
LWPOLYLINE
5
120
100
AcDbEntity
8
0
100
AcDbPolyline
90
5
70
1
43
0.0
10
0
20
160
10
680
20
160
10
680
20
240
10
19.999999999999996
20
240
42
0.41421356237309526
10
2.2204460492503131e-15
20
220
0
LWPOLYLINE
5
121
100
AcDbEntity
8
0
100
AcDbPolyline
90
4
70
1
43
0.0
10
399.00000000000006
20
160
10
399.00000000000006
20
230
10
411.10000000000008
20
230
10
411.10000000000008
20
160
0
LWPOLYLINE
5
122
100
AcDbEntity
8
0
100
AcDbPolyline
90
4
70
1
43
0.0
10
271
20
230
10
283.10000000000002
20
230
10
283.10000000000002
20
160
10
271
20
160
0
LWPOLYLINE
5
123
100
AcDbEntity
8
0
100
AcDbPolyline
90
4
70
1
43
0.0
10
655
20
160
10
655
20
230
10
667.09999999999991
20
230
10
667.09999999999991
20
160
0
LWPOLYLINE
5
124
100
AcDbEntity
8
0
100
AcDbPolyline
90
4
70
1
43
0.0
10
527
20
230
10
539.10000000000002
20
230
10
539.10000000000002
20
160
10
527
20
160
0
LWPOLYLINE
5
125
100
AcDbEntity
8
0
100
AcDbPolyline
90
4
70
1
43
0.0
10
143
20
160
10
143
20
230
10
155.10000000000002
20
230
10
155.10000000000002
20
160
0
LINE
5
126
100
AcDbEntity
8
0
100
AcDbLine
10
15
20
166
30
0
11
15
21
160
31
0
0
LINE
5
127
100
AcDbEntity
8
0
100
AcDbLine
10
15
20
160
30
0
11
27.100000000000001
21
160
31
0
0
LINE
5
128
100
AcDbEntity
8
0
100
AcDbLine
10
674.60934927256721
20
220
30
0
11
680
21
220
31
0
0
LINE
5
129
100
AcDbEntity
8
0
100
AcDbLine
10
674.60934927256721
20
180
30
0
11
674.60934927256721
21
220
31
0
0
LINE
5
130
100
AcDbEntity
8
0
100
AcDbLine
10
680
20
180
30
0
11
674.60934927256721
21
180
31
0
0
LINE
5
131
100
AcDbEntity
8
0
100
AcDbLine
10
15
20
230
30
0
11
15
21
160
31
0
0
LINE
5
132
100
AcDbEntity
8
0
100
AcDbLine
10
27.100000000000001
20
230
30
0
11
15
21
230
31
0
0
LINE
5
133
100
AcDbEntity
8
0
100
AcDbLine
10
27.100000000000001
20
160
30
0
11
27.100000000000001
21
230
31
0
0
LINE
5
134
100
AcDbEntity
8
0
100
AcDbLine
10
667.09999999999991
20
160
30
0
11
667.09999999999991
21
166
31
0
0
LINE
5
135
100
AcDbEntity
8
0
100
AcDbLine
10
667.09999999999991
20
166
30
0
11
15
21
166
31
0
0
LWPOLYLINE
5
136
100
AcDbEntity
8
0
100
AcDbPolyline
90
4
70
1
43
0.0
10
1.2582527612418439e-15
20
194
10
0
20
206.09999999999999
10
15
20
206.09999999999999
10
15
20
194
0
ENDSEC
0
SECTION
2
OBJECTS
0
DICTIONARY
5
C
100
AcDbDictionary
3
ACAD_GROUP
350
D
3
ACAD_MLINESTYLE
350
17
0
DICTIONARY
5
D
100
AcDbDictionary
0
DICTIONARY
5
1A
330
C
100
AcDbDictionary
0
DICTIONARY
5
17
100
AcDbDictionary
0
ENDSEC
0
EOF
